Минский форум
Вернуться   Минский форум О Минске - белорусский форум Спорт и отдых в Беларуси Хобби

Хобби Об увлечениях всяких и разных...


Здравствуйте, Гость! Вы находитесь в сообществе Минского форума.
Для размещения своих сообщений пройдите бесплатную регистрацию.

 
Опции темы
Старый 21.07.2006, 01:22 #1    
Аватар для Жентос
Пользователь
 
Регистрация: 20.07.2006
Возраст: 27
Сообщений: 66
Репутация: 0
Дарова, Минчане!

Предлагаю выкладывать сюда ссылки либо сами аккорды к песням вместе со словами. Тока такие песни, где тяжело найти... ДДТ, АРИЯ, ЛЕНИНГРАД есть везде.
__________________
Жизнь, как пьеса в театре - не важно, сколько она длиться... Важно, насколько хорошо она сыграна :xgood:

Старый 23.07.2006, 22:06 #2    
Аватар для Yadis
Легенда форума
 
Регистрация: 05.04.2006
Возраст: 36
Сообщений: 1,087
Записей в дневнике: 3
Репутация: 7639
как писал ZIZU...
http://www.akkords.net/ - Тексты песен, аккорды
http://www.amdm.ru/ - аккорды
http://www.gitaristam.ru/ - тоже аккорды и т.д. (мало всего нужного)
__________________
мировозЗРЕНИЕ надо заменять на мировозДЕЛЫВАНИЕ? В смысле - хватит на мир пялиться, сделай же что-нибудь хорошее!

Старый 09.08.2006, 21:30 #3    
Аватар для iam
Местный
 
Регистрация: 20.02.2006
Возраст: 32
Сообщений: 289
Репутация: 296
www.muzland.ru - здесь самые правильные аккорды, правда обновляется редко!!

Старый 14.09.2006, 11:52 #4    
Аватар для iam
Местный
 
Регистрация: 20.02.2006
Возраст: 32
Сообщений: 289
Репутация: 296
5nizza - Весна


(I) (II) (III) (IV)

1|--*-*-*------2-2-2---------------------------------6--|
2|--1-1-1------1-1-1------3-3-3------8-8-8--------8--|
3|--0-0-0~~----2-2-2~~--3-3-3~~----7-7-7~~---7--|
4|--1-1-1~~----0-0-0~---3-3-3~~----8-8-8~~----8--|
5|--0-0-0~~----0-0--~----5-5-5~~----6-6-6~~---6--|
6|--*-*-*------*-*-*------3-3-3------*-*-*-----------|
В конце (т.е. в конце IV аккорда)обратите внимание на удар по 6 ладу на первой струне
указательным пальцем левой руки :)!!!

(I) Улица длится, длится, не спится,
(II) Засыпаю - не могу остановиться,
(III) Зажигаю, наблюдаю за собой там,
(IV) Со стороны. Раны

(I) Не зажили, долго кружили.
(II) Кто? Снова тени ожили.
(III) Были, любили, забыли, оставили
(IV) Там.

Я не вернусь и снова не будет
Весны.
Я поднимусь, я уже не боюсь
Высоты-ы-ы-ы.

Я не хочу чтобы ты,
Я не хочу чтобы я,
Часами, словами, весами грузили
Себя.

Ту-ту-ту
Ту-ту-ту
Ту-ту-ту
Ту-ту-ту

Ту-ту-ту
Ту-ту-ту

Ночь наступает на пятки,
Звуки играют в прятки.
Сладкие взятки прячуться их
Не достать, до них не добраться

Можно смеяться, не приземляться.
Трудно понять, легко догадаться.


Нет не отнять того что бы было,
Опять догонять, время не ждать
Можно сгореть, не успеть, не допеть,
Не догнать, не узнать, потеряться.

Можно смеяться, не приземляться.
Трудно понять, легко догадаться.

Я не вернусь и снова не будет
Весны.
Я поднимусь, я уже не боюсь
Высоты-ы-ы-ы.

Я не хочу чтобы ты,
Я не хочу чтобы я,
Часами, словами, весами грузили
Себя.

Ту-ту-ту
Ту-ту-ту
Ту-ту-ту
Ту-ту-ту

Ту-ту-ту
Ту-ту-ту

На ответы у меня есть вопросы,
Папиросы распросы, спроси меня:
Где ты? - Нигде, я иду никуда.
Да, горят провода, это

Правда. Сухая вода,
Бесконечная нота. Спроси меня:
Кто ты? - Никто, но я здесь
Навсегда.

Я же вернусь и снова наступит
Весна.
Когда я проснусь, я узнаю -
Тебе не до сна-а-а-а

Я так хочу чтобы ты,
Я так хочу чтобы я,
Дышали одной тишиной и не видели
Дня.

Я так хочу чтобы ты,
Я так хочу чтобы я,
Ту-ту-ту
Ту-ту-ту

Дышали одной тишиной и не видели
Дня-а-а.
а а а

Я так хочу чтобы ты,
Я так хочу чтобы я,
Дышали одной тишиной и не видели
Дня-(C#)а-а-а-а-а.

(D#) А-а-
(C#) Я же вернусь и снова наступит

(C#) Весна. А-а-
(D#) а.

(C#) Я же вернусь и снова наступит
(D#) Весна-а. А-а-

(C#) а. А-а-
(D#) а.

(C#) Я же вернусь и снова наступит
(D#) Весна-а.

(C#) А-а-
(D#) а.

Старый 01.03.2007, 02:37 #5    
Аватар для Mahno
Местный
 
Регистрация: 17.02.2007
Возраст: 32
Сообщений: 139
Репутация: 228
Led Zeppelin
Stairway to heaven
E-------5-7-----7-|-8-----8-2-----2-|-0---------0-----|-----------------|
B-----5-----5-----|---5-------3-----|---1---1-----1---|-0-1-1-----------|
G---5---------5---|-----5-------2---|-----2---------2-|-0-2-2-----------|
D-7-------6-------|-5-------4-------|-3---------------|-----------------|
A-----------------|-----------------|-----------------|-2-0-0---0--/8-7-|
E-----------------|-----------------|-----------------|-----------------|

E---------7-----7-|-8-----8-2-----2-|-0---------0-----|-----------------|
B-------5---5-----|---5-------3-----|---1---1-----1---|-0-1-1-----------|
G-----5-------5---|-----5-------2---|-----2---------2-|-0-2-2-----------|
D---7-----6-------|-5-------4-------|-3---------------|-----------------|
A-0---------------|-----------------|-----------------|-2-0-0-------0-2-|
E-----------------|-----------------|-----------------|-----------------|

E-------0-2-----2-|-0-----0----------|---------3-----3-
B-----------3-----|---1-----0h1------|-1-----1---0-----
G-----0-------2---|-----2-------2----|---0---------0---
D---2-----0-------|-3----------------|-----2-----------
A-3---------------|---------0----0-2-|-3---------------
E-----------------|------------------|---------3-------
Intro end.
E---------2-----2-|-0-----0----------|---------------2-|-0-0-0-----------|
B-------1---3-----|---1-----0-1------|-------1-----3---|-1-1-1-----------|
G-----0-------2---|-----2-------2----|-----0-----2-----|-2-2-2-----------|
D---2-----0-------|-3----------------|---2-----0-------|-3-3-3-----------|
A-3---------------|---------0----0-2-|-3---------------|-----------------|
E-----------------|------------------|-----------------|-----------------|
Theres a

E-------5-7-----7-|-8-----8-2-----2-|-0---------0-----|-----------------|
B-----5-----5-----|---5-------3-----|---1---1-----1---|-0-1-1-----------|
G---5---------5---|-----5-------2---|-----2---------2-|-0-2-2-----------|
D-7-------6-------|-5-------4-------|-3---------------|-----------------|
A-----------------|-----------------|-----------------|-2-0-0-----------|
E-----------------|-----------------|-----------------|-----------------|
lady whos glitter buying a heaven When she

E-------5-7-----7-|-8-----8-2-----2-|-0---------0-----|-----------------|
B-----5-----5-----|---5-------3-----|---1---1-----1---|-0-1-1-----------|
G---5---------5---|-----5-------2---|-----2---------2-|-0-2-2-----------|
D-7-------6-------|-5-------4-------|-3---------------|-----------------|
A-----------------|-----------------|-----------------|-2-0-0-------0-2-|
E-----------------|-----------------|-----------------|-----------------|
gets there stores are ord she can get came for

E---------2-----2-|-0-----0---------------|---------3-----3-|-3^2-2-2-------|
B-------1---3-----|---1----1--0-1---------|-1---1-1---0-----|-3---3-3-------|
G-----0-------2---|-----2---------2-------|---0-0-------0---|-2-----2-------|
D---2-----0-------|-3---------------------|-----2-----------|-0-----0-------|
A-3---------------|-----------0------0-2--|-3---------------|-----------0-2-|
E-----------------|-----------------------|---------3-------|---------------|
Oooh oooh and shes buying a heaven Theres

E-------0-2-----2-|-0-----------------|---------2-----2-|-0-0-0-----------|
B-----------3-----|---1--1--0 1-------|-1-----1---3-----|-1-1-1-----------|
G-----0-------2---|-----2-------2-----|---0---------2---|-2-2-2-----------|
D---2-----0-------|-3-----------------|-----2---0-------|-3-3-3-----------|
A-3---------------|---------------0-2-|-3---------------|-----------------|
E-----------------|-------------------|-----------------|-----------------|
sign on she wants you know two meanings In a

E-------5-7-----7-|-8-----8-2-----2-|-0---0-----0-----|-----------------|
B-----5-----5-----|---5-------3-----|---1---1-----1---|-0-1-1-----------|
G---5---------5---|-----5-------2---|---------------2-|-0-2-2-----------|
D-7-------6-------|-5-------4-------|-3---------------|-----------------|
A-----------------|-----------------|-----------------|-2-0-0---0--/8-7-|
E-----------------|-----------------|-----------------|-----------------|
tree theres a song times all of our mis given

E--------5-7---7---|----8-------2------|----0-------0----|-----------------|
B-----------5-5-5--|---5-5-----3-3-----|---1--1----1-1---|-0-1-1-------3---|
G------5-----5---5-|--5---5---2---2--2-|--2----2--2---2--|-0-2-2-------0---|
D----7-----6-------|-5-----5-4-----4---|-3-------3-----3-|-------------0---|
A-0-0--------------|-------------------|-----------------|-2-0-0-------2---|
E------------------|-------------------|-----------------|-----------------|

|-3---3-3-3--3--0-0-|-2-------2-------|-3--3-3-3--3--0-0---7-|--5---3---5----
|-1---1-1-1--1--1-3-|-3--3--3---3-0-0-|-1--1-1-1--1--1-1---8-|--7---5---7----
|-2---2-2-2--2--2-2-|-2-----------0-0-|-2--2-2-2--2--2-2---9-|--7---5---7----
|-2---2-2-2--2--2---|---0-------------|-2--2-2-2--2--2-2---0-|-------------0-
|-------------------|-----------------|----------------------|-------------0-
|-------------------|-----------------|----------------------|---------------
Oooh it makes me wonder
|-3---3-3-3--3--0-0-|-2-------2-------|-3--3-3-3--3--0-0---7-|--5---3---5----
|-1---1-1-1--1--1-3-|-3--3--3---3-0-0-|-1--1-1-1--1--1-1---8-|--7---5---7----
|-2---2-2-2--2--2-2-|-2-----------0-0-|-2--2-2-2--2--2-2---9-|--7---5---7----
|-2---2-2-2--2--2---|---0-------------|-2--2-2-2--2--2-2---0-|-------------0-
|-------------------|-----------------|----------------------|-------------0-
|-------------------|-----------------|----------------------|---------------
oooh makes me wonder theres a

------------------|------------------------|-----------------0--|--0--------
---------1------3-|-0h1----------1---------|-------1---------0--|--1--------
-------0------0---|-----2-------2----------|-----0--------0--2--|--2--------
-----2------0-----|---------2--------------|---2--------0----3--|--2--------
-0h3------2-------|-------0----------0--2--|-3--------2------3--|--0---0-2--
------------------|------------------------|-----------------1--|-----------
feeling when look to my spirit leaving in my
whispered all call the tune then the piper will to reason &

----------------|--------------------|----------------0-|--0------|---------
-------1------3-|-0h1---------1------|-------1--------1-|--1------|----1---3
-----0------0---|-----2-----2--------|-----0-------0--2-|--2------|---0---0-
---2------0-----|---------2----------|---2-------0----3-|--2------|--2---0--
-3------2-------|-------0------0--2--|-3-------2------3-|--0--0-2-|-3---2---
----------------|--------------------|----------------1-|---------|---------
thoughts I ***** through voices of looking [goto %]
new day those who forests will laugh - ter

|-3--3-3-3--3p-0-0---7-|--5---3---5----|-3--3-3-3--3h-0-0-|-2-----2-2-2-2-0-0-
|-1--1-1-1--1--1-1---8-|--7---5---7----|-1--1-1-1--1--1-3-|-3-----3-3-3-3-0-0-
|-2--2-2-2--2--2-2---9-|--7---5---7----|-2--2-2-2--2--2-0-|-2-----2-2-2-2-0-0-
|-2--2-2-2--2--2-2---0-|----------0----|-2--2-2-2--2--2---|----0--0-----------
|----------------------|-------------0-|------------------|-------------------
|----------------------|---------------|------------------|-------------------
whoah
|-3--3-3-3--3--0-0---7-|--5---3---5----
|-1--1-1-1--1--1-1---8-|--7---5---7----
|-2--2-2-2--2--2-2---9-|--7---5---7----
|-2--2-2-2--2--2-2---0-|----------0----
|----------------------|-------------0-
|----------------------|---------------


------------------|------------------------|-----------------0--|--0--------
---------1------3-|-0h1----------1---------|-------1---------1--|--1--------
-------0------0---|-----2-------2----------|-----0--------0--2--|--2--------
-----2------0-----|---------2--------------|---2--------0----3--|--2--------
-0h3------2-------|-------0----------0--2--|-3--------2------3--|--0---0-2--
------------------|------------------------|-----------------1--|-----------
If theres a bust 'edge row dont its just a Queen
Yes there are go by but and theres still your on

----------------|-3--3-3-3--3--0-0-|-2-----2-2-2-2-----|-3--3-3-3--3--0-7-
-------1------0-|-1--1-1-1--1--1-3-|-3-----3-3-3-3-0-0-|-1--1-1-1--1--1-8-
-----0------0---|-2--2-2-2--2--0-0-|-2--2--2-2-2-2-0-0-|-0--0-2-0--0--0-9-
---2------0-----|-2--2-2-2--2------|----0--0-----------|-2--2-2-2--2------
-3------2-------|------------------|-------------------|------------------
----------------|------------------|-------------------|------------------
and it won der

-5--3--5--|-3--3-3-3--3--0-0-|-2-----2-2-2-2-0-0-|-3--3-3-3--3--0-7-|-5--3--5-
-7--5--7--|-1--1-1-1--1--1-3-|-3--3--3-3-3-3-0-0-|-1--1-1-1--1--1-8-|-7--5--7-
-7--5--7--|-2--2-2-2--2--0-0-|-2--2--2-2-2-2-0-0-|-0--0-2-0--0--0-9-|-7--5--7-
----------|-2--2-2-2--2------|-------------------|-2--2-2-2--2------|---------
--------0-|------------------|-------------------|------------------|--------0
----------|------------------|-------------------|------------------|---------
oooh

------------------|------------------------|-----------------0--|--0--------
---------1------3-|-0h1----------1---------|-------1---------1--|--1--------
-------0------0---|-----2-------2----------|-----0--------0--2--|--2--------
-----2------0-----|---------2--------------|---2--------0----3--|--2--------
-0h3------2-------|-------0----------0--2--|-3--------2------3--|--0---0-2--
------------------|------------------------|-----------------1--|-----------
Your head is wont go the pipers him
Dear lady can blow your stairw whispering wind

wierd time (3/4?)
-----3--------3---|--2---------0-2--|-3----0-2--3--0-2--|---3-3-2---------
---5--------3---4-|--3-------3-3-3--|-3--3-3-3--3--3-3--|---3-3-3-3-------
-5-----5--4-------|--2-------2-2-2--|-2--2-2-2--2--2-2--|---2-2-2-0-------
------------------|-----------------|-0--0-0-0--0--0-0--|---0-0-0-2-------
------------------|-----------------|-------------------|---------3-------
------------------|-----------------|-------------------|-----------------

---2-2-2---|---2--2-2--0-0-0-2-|-3-0-2--0-2-|-3-3-3-3-|---2--2-2-0-0-|-0-2-2-0
-3-3-3-3-1-|-1-3--3-3--3-3-3-3-|-3-3-3--3-3-|-3-3-3-3-|-3-3--3-3-3-3-|-3-3-3-3
-0-0-0-0-0-|-0-0--0-0------2-2-|-2-2-2--2-2-|-2-2-2-0-|-0-0--0-0-0-0-|-0-0-0-0
---------2-|-----------0-0-0-0-|-0-0-0--0-0-|-0-0-0-2-|-2------------|--------
---------3-|-------------------|------------|-------3-|--------------|--------
-----------|-------------------|------------|---------|--------------|--------

Ok this is where the solo starts. Am - x02210
I'll include the chords to play over Am7 - x02010
it they sound pretty open I think Fmaj7 - xx3210
its a 12 string.

Am Am7 Fmaj7
|----------5---------------|------------------8--8-|
|------------8-5-----------|-------------8b10------|
|---7b9----------7-5---7p5-|-----------------------|
|--------------------7-----|-7p5-------------------|
|--------------------------|----8------------------|
|--------------------------|-----------------------|

Am Am7 Fmaj7
|--8b10---8--5 -----8--10-|-8-----------------------5-------|
|---------------8b10-------|---10-8----8h10------------8-5---|
|--------------------------|--------10-----------7b9-------7-|
|--------------------------|---------------------------------|
|--------------------------|---------------------------------|
|--------------------------|---------------------------------|
Am Am7 Fmaj7
|----------------------------|----5------------------------|
|----------------------------|------8-5--------------------|
|-5---7p5------------5---5-5-|----------7-5--7p5-----------|
|---7-----7-5---5-7----7-----|-5------------7----7p5-7p5---|
|-------------7--------------|---------------------------8-|
|----------------------------|-----------------------------|

Am Am7
|---------------------------------------------|
|------------------------------------------13-|
|---------10-------------------12----12-14----|
|------10----12-10----10-12/14----14----------|
|-8/12-------------12-------------------------|
|---------------------------------------------|

Fmaj7
|------------------------15b17-15-12----------------|
|--15b17-15-13--15-13-13-------------15b17-15-13----|
|------------------------------------------------14-|
|---------------------------------------------------|
|---------------------------------------------------|
|---------------------------------------------------|
Am Am7
|----------------------------------------------------------------------------
|-13-15b17b15p13----13-15b17b15p13----13---15b17b15p13----13--15b17b15p13----
|----------------14----------------14------------------14-----------------14-
|----------------------------------------------------------------------------
|----------------------------------------------------------------------------
|----------------------------------------------------------------------------

Fmaj7
|----------------------------------------------------------------------------
|-13-15b17b15p13----13--15b17b15p13----13--15b17b15p13----13--15b17b15p13----
|----------------14-----------------14-----------------14-----------------14-
|----------------------------------------------------------------------------
|----------------------------------------------------------------------------
|----------------------------------------------------------------------------

Am Am7 hold bend
|------------------------------------------15b17--|
|-13--15b17b15p13----13---15b17b15p13----13-------|
|-----------------14------------------14----------|
|-------------------------------------------------|
|-------------------------------------------------|
|-------------------------------------------------|

Fmaj7
|-b17b15-12---12--------------------------------15--|
|-----------15---15--13----13-15-13---13--15b17-----|
|-----------------------14----------14--------------|
|---------------------------------------------------|
|---------------------------------------------------|
|---------------------------------------------------|

* this slide riff is another guitar and
is actually played on the 1st string
------8/7---8/5----
/
Am Am7 /---------\ Fmaj7
-----------------------------|-----------17----------------------------------
-15b17b15p13----13/12--13/10-|--------20----20-20----------------------------
-------------14--------------|--19b21-21----------19b21b19p17---19--17----19-
-----------------------------|--------------------------------19-------19----
-----------------------------|-----------------------------------------------
-----------------------------|-----------------------------------------------
Am Am7 Fmaj7 Am Am7
|--------------------|--------------------------------|--------------|
|--------------------|--------------------------------|--------------|
|-19b21--13/12 13/10-|--14b17--14b17-14--12--14--12-12b14------------|
|--------------------|--------------------------------|--------------|
|--------------------|--------------------------------|--------------|
|--------------------|--------------------------------|--------------|
Fmaj7 Am Am7
|-----------------------------------|----------8/7--8/5--|
|-----------------------------------|--------------------|
|-10b14----10b12b10-9-7----7--------|-7-9-7--------------|
|-----------------------10----10----|-------10-7---------|
|-----------------------------------|--------------------|
|-----------------------------------|--------------------|

Fmaj7
|----20-p17------20-p17------20-p17------20-p17------20-p17-----20b22-|
|-17--------17----------17----------17----------17----------17--------|
|---------------------------------------------------------------------|
|---------------------------------------------------------------------|
|---------------------------------------------------------------------|
|---------------------------------------------------------------------|

The two guitars continue into this section. Walloping (a technical term
meaning hit very hard &) the strings using the full barre sounds pretty
good. The lead basically follows the bass. You can do both (like you
can tweak the slide riff with one guitar)

I think i can probably tabascii the bass now, ive listened to it enough.
But ive had it for this song!! unless someone really needs it please dont
ask just yet.. Ive gotten transfixed by a few other zepplin tracks
that where on the album, their slower more melodic stuff like no quarter
down by the seaside etc..

Am G F G Am G F G
|-5------------3----------------|-1--3-|-5------------3-------------|--1--3-
|-5------------3----------------|-1--3-|-5------------3-------------|--1--3-
|-5------------4----------------|-2--4-|-5------------4-------------|--2--4-
|-7------------5----------------|-3--5-|-7------------5-------------|--3--5-
|-7------------5----------------|-3--5-|-7------------5-------------|--3--5-
|-5------------3----------------|-1--4-|-5------------3-------------|--1--4-
And as we wind on down the road Our shadows taller than our soul

Am G F G Am G
|-5------------3-------------|-1--3--|-5------------3----------|
|-5------------3-------------|-1--3--|-5------------3----------|
|-5------------4-------------|-2--4--|-5------------4----------|
|-7------------5-------------|-3--5--|-7------------5----------|
|-7------------5-------------|-3--5--|-7------------5----------|
|-5------------3-------------|-1--4--|-5------------3----------|
there walks a lady we all know who shines w' light and to

F G Am G
--1-----------------------3--|-------------------------------
--1-----------------------3--|-------------------------------
--2-----------------------4--|-------------------------------
--3-----------------------5--|-------------------------------
--3----------3--5h7--5--3-5--|-------------------------------
--1----1-3h5--------------3--|-5---5--------3--3-------------
show how everything still turns to

Am G F G Am G
|---------------------5------------3-------------|-1--3--|-5------3----------
|---------------------5------------3-------------|-1--3--|-5------3----------
|---------------------5------------4-------------|-2--4--|-5------4----------
|---------------------7------------5-------------|-3--5--|-7------5----------
|-------3--5h7--5--3--7------------5-------------|-3--5--|-7------5----------
|-1-3h5---------------5------------3-------------|-1--4--|-5-5----3--3-------
gold and if you listen very hard the tune will come to u at


F G Am G F
|--1------------------------|----------0-|---0-0-0-0-----
|--1------------------------|----------1-|---1-1-1-1-----
|--2------------------------|----------2-|---2-2-2-2-----
|--3------------------------|----------3-|---3-3-3-3-----
|--3----------3--5h7--5--3--|------------|---------------
|--1----1-3h5---------------|-5-5--3-3-1-|-1----------5-5
last when all __ yeah

Am G Fmaj7 Am Am7/G Fmaj7
|-----------0-|-0-0-0-0------|--------8-10-----|-------------------------
|-----------1-|-1-1-1-0------|-8/10--------10--|--8h10p10----------3-3---
|-----------2-|-2-2-2-0------|-----------------|-----------------5b7-2---
|-----------3-|-3-3-3-0------|-----------------|---------------------3---
|-------------|--------------|-----------------|-------------------------
|-5-5--3-3--1-|--------------|-----------------|-------------------------
to be a rock roll__


Am Am7/G Fmaj7 Am Am7/G
----------------------0--|-------------------|------------------------
----5-------8------10-3--|-----13-------12---|-----13------12------13-
--7b9----10b12--12b14-0--|--15b17----14b16---|--15b17---14b16---15b17__
----------------------0--|-------------------|-------------------------
-------------------------|-------------------|-------------------------
-------------------------|-------------------|-------------------------
Fmaj7
|-----------------------------------------
|-13------12-------13------15--------------
__17---14b16----15b17---17b19--------------
|-----------------------------------------
|------------------------------------------
|------------------------------------------


slow
Am Am7/G Fmaj7
----------------------|-0---------------------------------------------
----13------12-----15-|-1----13---------------------------------------
-15b17---14b16--17b19-|-2-15b17---------------------------------------
----------------------|-3---------------------------------------------
----------------------|-----------------------------------------------
----------------------|-----------------------------------------------
And shes buying a stairway to heaven

@SONG: Stairway To Heaven


There's a lady who's sure
All that glitters is gold
And she's buying a stairway to heaven.
When she gets there she knows
If the stores are all closed
With a word she can get what she came for.
Ooh, ooh, and she's buying a stairway to heaven.

There's a sign on the wall
But she wants to be sure
'Cause you know sometimes words have two meanings.
In a tree by the brook
There's a songbird who sings,
Sometimes all of our thoughts are misgiven.
Ooh, it makes me wonder,
Ooh, it makes me wonder.

There's a feeling I get
When I look to the west,
And my spirit is crying for leaving.
In my thoughts I have seen
Rings of ***** through the trees,
And the voices of those who standing looking.
Ooh, it makes me wonder,
Ooh, it really makes me wonder.

And it's whispered that soon
If we all call the tune
Then the piper will lead us to reason.
And a new day will dawn
For those who stand long
And the forests will echo with laughter.

If there's a bustle in your hedgerow
Don't be alarmed now,
It's just a spring clean for the May queen.
Yes, there are two paths you can go by
But in the long run
There's still time to change the road you're on.
And it makes me wonder.

Your head is humming and it won't go
In case you don't know,
The piper's calling you to join him,
Dear lady, can you hear the wind blow,
And did you know
Your stairway lies on the whispering wind.

And as we wind on down the road
Our shadows taller than our soul.
There walks a lady we all know
Who shines white light and wants to show
How ev'rything still turns to gold.
And if you listen very hard
The tune will come to you at last.
When all are one and one is all
To be a rock and not to roll.

And she's buying a stairway to heaven.





Классика не стареет
__________________
Что не убивает нас,то делает сильнее

Старый 12.04.2007, 02:14 #6    
Аватар для DITE
Пользователь
 
Регистрация: 07.04.2007
Возраст: 36
Сообщений: 70
Репутация: 852
Народ поделитесь песенкой какой нить чтобы можно было спеть у костра.
Еще, чета не знаю ни отдной веселой песни:xunknw: , мот кто знает?

Старый 13.04.2007, 02:25 #7    
Аватар для Mahno
Местный
 
Регистрация: 17.02.2007
Возраст: 32
Сообщений: 139
Репутация: 228
intro
|-3-------3-------2-------2-------0-------0---------0-----2-|
|-3-3-----3-3-----3-3---3-3-3---3-1-1-----1-1-----1---1---3-|
|-0---0---0---0---2---2---2---2---0---0---0---0---2-----2-2-|
|-0-----0-0-----0-0-------0-------2-----2-2-----2-2-------0-|
|-2-------2-----------------------3-------3-------0---------|
|-3-------3-------------------------------------------------|

G(s)-перебор D(s)-перебор Em(s)-перебор C(s)-перебор D(s1)-перебор
|---------| |---------| |---------| |---------| |-------2h3h2-|
|---------| |---------| |---------| |---------| |-----3-------|
|-----0---| |-----2---| |-----0---| |-----0---| |---2---------|
|---0---0-| |---0---0-| |---2---2-| |---2---2-| |-0-----------|
|---------| |-0-------| |---------| |-3-------| |-------------|
|-3-------| |---------| |-0-------| |---------| |-------------|

G(s) D(s)
Побледневшие листья окна зарастают прозрачной водой.
Em(s) C(s) D(s1)
У воды нет ни смерти, ни дна. Я прощаюсь с тобой.
Горсть тепла после долгой зимы - донесем.
Пять минут до утра - доживем.
Наше море вины поглощает время-дыра

Пр.
G D Em C D
Это все, что останется после меня,
G D C D
Это все, что возьму я с собой.

|3| |3-2-0-| |2| |2-3-2-0-2-|
|3| |3-3-3-| |3| |3-3-3-3-3-|
|0| |0-0-0-| |2| |2-2-2-2-2-|
|0| |0-0---| |0| |0-0-0-0-0-|
|2| |2-----| |-| |----------|
|3| |3-----| |-| |----------|
Две мечты и печали стакан мы, воскреснув, допили до дна.
|0| |3-2-0| |3|
|0| |0-0-0| |1|
|0| |0-0-0| |0|
|2| |2-2-2| |2|
|2| |2-2-2| |3|
|0| |0-0-0| |-| D(s1)
Я не знаю, зачем тебе дан правит мною дорога-война.
И не плачь, если можешь, прости. Жизнь - не сахар, а смерть нам - не чай.
Мне свою дорогу нести. До свиданья, друг, и прощай.

Пр.*2

С нами память сидит у стола, а в руке ее пламя свечи.
Ты такой хорошей была, посмотри на меня, не молчи.
Крики чайки на белой стене окольцованной черной луной.
Нарисуй что-нибудь на окне и шепни на прощанье рекой.

Пр.*2
2-й куплет - удар по струнам только на смене аккорда или где указано.
3-й куплет - ритм по аппликатурам 2-го куплета.
DITE,пой эту не прогадаешь..........
__________________
Что не убивает нас,то делает сильнее

Старый 13.04.2007, 03:00 #8    
Аватар для DITE
Пользователь
 
Регистрация: 07.04.2007
Возраст: 36
Сообщений: 70
Репутация: 852
Цитата:
Сообщение от Mahno Посмотреть сообщение
DITE,пой эту не прогадаешь..........
Спасиба, классная песня, есть в моем арсенале такая, а еще "белая река" ддт(поем со старым другом - жизненная такая). Просто я знаю все какие то грустные песни, может есть какая нибудь веселая? Вот например у браво по моему есть песня со словами: "Любите девушки простых романтиков, отважных летчиков и моряков. Бросайте девушки домашних мальчиков, не стоит им дарить свою любовь". ну сойдет за веселую. Просят :" давай что нибудь веселое" - а я и не знаю что...:xunknw:

Старый 13.04.2007, 03:35 #9    
Аватар для Mahno
Местный
 
Регистрация: 17.02.2007
Возраст: 32
Сообщений: 139
Репутация: 228
* Любите девушки Е.Хавтан*/*В.Сюткин
B
В*самый*полный*штиль ****************
Dm
И*в*самый*сильный*уpаган ***
Gm**********Eb********F
Ходят*в*синем*моpе*коpабли
B*****************************Dm
Может*потому-то*и*понятно*моpякам
Gm*************Eb******F
Что*такое*"океан*любви" ********
Cm7*****F*******Cm7*****F
Этим*смелым*паpням*и*беда*не*беда
B***********Gm**********Eb******F7
Путеводная*им*помогает*звезда Припев : ************
B*******************Gm
Любите,*девушки,*пpостых*pомантиков ****************
Eb**********F
Отважных*летчиков*и*моpяков ********************
B***************Gm
Бpосайте,*девушки,*домашних*мальчиков *******************
*Eb******F***B
Hе*стоит*им*даpить*свою*любовь
Hачеpтил*на*синем*небе*"Я*тебя*люблю"
Белым*цветом*быстpый*самолет
Кто*поздpавит*с*днем*pожденья*девушку*свою
Так*как*это*делает*пилот
Этим*смелым*паpням*и*беда*не*беда
Путеводная*им*помогает*звезда
__________________
Что не убивает нас,то делает сильнее

Старый 13.04.2007, 10:51 #10    
Аватар для Лея Гилар
Местный
 
Регистрация: 13.09.2006
Возраст: 33
Сообщений: 344
Репутация: 75
Наступила ранняя осень
Ранней осенью ты меня бросил
Завтра уже ты меня забудешь
Больше ты меня не любишь

Я наверное стану стревой
Отвратительной мерзкой, нервной
Меня жалеть тебя никто не просит
Сволочь ты, почему меня бросил.

Ты меня не любишь,
не любишь,
ты меня не любишь,
х*ли ты меня не любишь.

Мне теперь одна дорога
на панель или в тюрьму
Я схожу с ума понемногу,
Почему ты не любишь меня не пойму
Я ширяюсь я бухаю,
некрасивая, плохая,
Мне все твердят "Ты себя погубишь"
Х*ли ты меня не любишь?

Ты меня не любишь,
не любишь,
Ты меня не любишь,
Ну и не люби...

Кажется так.
Восьмая марта группа называется.
Самая что ни на есть веселая песня.
C Am F G
Am F C G
если верить памяти, то именно так.


Метки
аккорды, песни, песни под гитару, правильные аккорды, слова песен, тексты песен
Опции темы


Похожие темы
Тема Автор Раздел Ответов Последнее сообщение
Ответ названием песни Marla Biruza Форумские игры 213 12.11.2014 01:12
Продам акустическую гитару Cort AD 810 Юлич Продажа 0 03.05.2014 14:59
Песни на белорусском языке anhennn Музыка 0 02.11.2007 00:10
Любимые песни HIV Музыка 29 24.06.2007 11:39
Песни :) Bloom Музыка 8 05.04.2006 00:35


©2006 - 2017 MinskLife.net
Powered by vBulletin® Version 3.8.4
Copyright ©2000 - 2017, Jelsoft Enterprises Ltd.
Content Relevant URLs by vBSEO ©2010, Crawlability, Inc.